Tyler The Creator - Her

(/) Slide Up  (\) Slide Down  (h) Hammer On  (p) Pull Off  (b) Bend (r) Release (v) Vibrato


E|----------11--------------11------
B|------12------12------12------12--
G|--13--------------13--------------
D|----------------------------------
A|--11------------------------------
E|----------------------------------



E|----------12--------------14--12--
B|------13------13------13----------
G|--14--------------14--------------
D|----------------------------------
A|--12------------------------------
E|----------------------------------



E|----------10--------------10------
B|------12------12------12------12--
G|--12--------------12--------------
D|----------------------------------
A|--10------------------------------
E|----------------------------------



E|----------8--------------8------
B|------10-----10------10-----10--
G|--10-------------10-------------
D|--------------------------------
A|--8-----------------------------
E|--------------------------------



E|-----------------------
B|--9--12--12------------
G|--8--11--11--11--7--9--
D|--6--9---9---9---9--7--
A|-----------------------
E|-----------------------



E|--------------------------------
B|--------------------------------
G|--5--2--5--7--4--0-----------2--
D|--------------------2--0--4-----
A|--------------------------------
E|--------------------------------



E|--
B|--
G|--
D|--
A|--
E|--
http://www.guitartabcreator.com
Guitar Tab Creator is intended to store guitar tab created through the tool. It currently does not support in-line text editing. Any text you place in here will be lost. If you need to comment on your tab, please use the "Tab Notes" section located below.