Skream - Reflections (feat. Instramental & DBridge)

(/) Slide Up  (\) Slide Down  (h) Hammer On  (p) Pull Off  (b) Bend (r) Release (v) Vibrato

E|----------------------
B|--------------11--10--
G|------12--10----------
D|--12------------------
A|----------------------
E|----------------------



E|--------------------------
B|--------------11--10------
G|------12--10----------12--
D|--12----------------------
A|--------------------------
E|--------------------------



E|--10--
B|------
G|------
D|------
A|------
E|------



E|--10--
B|------
G|------
D|------
A|------
E|------



E|--10--
B|------
G|------
D|------
A|------
E|------



E|--10--
B|------
G|------
D|------
A|------
E|------



E|--10--
B|--10--
G|------
D|------
A|------
E|------



E|--10--10--10--10--10--10--10--10--10--10--10--10--10--10--10--10--
B|------------------------------------------------------------------
G|------------------------------------------------------------------
D|------------------------------------------------------------------
A|------------------------------------------------------------------
E|------------------------------------------------------------------



E|--17--17--17--17--17--17--17--17--
B|----------------------------------
G|----------------------------------
D|----------------------------------
A|----------------------------------
E|----------------------------------



E|--17--17--17--17--17--17--17------
B|----------------------------------
G|------------------------------17--
D|----------------------------------
A|----------------------------------
E|----------------------------------



E|--17--17--17--17--17--17--17------
B|----------------------------------
G|------------------------------16--
D|----------------------------------
A|----------------------------------
E|----------------------------------



E|--17--17--17--17--17--17--17------
B|----------------------------------
G|------------------------------17--
D|----------------------------------
A|----------------------------------
E|----------------------------------



E|--10--
B|--10--
G|------
D|------
A|------
E|------



E|--10--10--10--10--10--10--10--10--10--10--10--10--10--10--10--10--10--10--10--
B|------------------------------------------------------------------------------
G|------------------------------------------------------------------------------
D|------------------------------------------------------------------------------
A|------------------------------------------------------------------------------
E|------------------------------------------------------------------------------



E|--
B|--
G|--
D|--
A|--
E|--
http://www.guitartabcreator.com
Guitar Tab Creator is intended to store guitar tab created through the tool. It currently does not support in-line text editing. Any text you place in here will be lost. If you need to comment on your tab, please use the "Tab Notes" section located below.