Skream - Perferated

(/) Slide Up  (\) Slide Down  (h) Hammer On  (p) Pull Off  (b) Bend (r) Release (v) Vibrato


E|--1--------
B|--3--3-----
G|-----2--2--
D|--------0--
A|-----------
E|-----------



E|--5--------
B|--6--6-----
G|-----7--7--
D|--------7--
A|-----------
E|-----------



E|--3--------
B|--5--5-----
G|-----5--5--
D|--------5--
A|-----------
E|-----------



E|--
B|--
G|--
D|--
A|--
E|--



E|--3--------
B|--5--5-----
G|-----5--5--
D|--------5--
A|-----------
E|-----------



E|------
B|------
G|--10--
D|------
A|------
E|------



E|------
B|------
G|--14--
D|------
A|------
E|------



E|--9--
B|-----
G|-----
D|-----
A|-----
E|-----



E|--10--
B|--11--
G|--10--
D|--8---
A|------
E|------



E|--13--
B|--15--
G|--14--
D|--12--
A|------
E|------



E|--
B|--
G|--
D|--
A|--
E|--
http://www.guitartabcreator.com
Guitar Tab Creator is intended to store guitar tab created through the tool. It currently does not support in-line text editing. Any text you place in here will be lost. If you need to comment on your tab, please use the "Tab Notes" section located below.