Skream - Metamorphosis

(/) Slide Up  (\) Slide Down  (h) Hammer On  (p) Pull Off  (b) Bend (r) Release (v) Vibrato


E|-------------
B|-------------
G|-------------
D|--10--9------
A|-------------
E|---------12--



E|---------
B|---------
G|---------
D|--9------
A|---------
E|-----12--



E|-----------
B|-----------
G|-----------
D|-----------
A|--7--------
E|-----8--7--



E|-----------
B|-----------
G|-----------
D|--5--4-----
A|-----------
E|--------7--



E|--------
B|--------
G|--------
D|--4-----
A|--------
E|-----7--



E|-----------
B|-----------
G|-----------
D|-----------
A|-----------
E|--3--2--0--



E|----------------
B|---------8------
G|----------------
D|--10--9---------
A|----------------
E|------------12--



E|------------
B|-----8------
G|------------
D|--9---------
A|------------
E|--------12--



E|------------------
B|------------------
G|------------------
D|------------------
A|--7--------10-----
E|-----8--7------7--



E|-----------
B|-----------
G|-----------
D|--5--4-----
A|-----------
E|--------7--



E|--------
B|--------
G|--------
D|--4-----
A|--------
E|-----7--



E|-----------
B|-----------
G|-----------
D|-----------
A|-----------
E|--3--2--0--



E|--
B|--
G|--
D|--
A|--
E|--
http://www.guitartabcreator.com
Guitar Tab Creator is intended to store guitar tab created through the tool. It currently does not support in-line text editing. Any text you place in here will be lost. If you need to comment on your tab, please use the "Tab Notes" section located below.