Skream - Listenin' To The Records On My Wall

(/) Slide Up  (\) Slide Down  (h) Hammer On  (p) Pull Off  (b) Bend (r) Release (v) Vibrato


E|--------------
B|--------------
G|----------14--
D|------14------
A|--12----------
E|--------------



E|-----------------
B|-----------------
G|--9--9--9--9--9--
D|--7--7--7--7--7--
A|-----------------
E|-----------------



E|------
B|------
G|--14--
D|--14--
A|--12--
E|------



E|------
B|------
G|--14--
D|--14--
A|--12--
E|------



E|------
B|------
G|--9---
D|--10--
A|------
E|------



E|----------------------------------------------------
B|----------------------------------------------------
G|----------------9--9--9--9--9--9--9--9--9--9--9--9--
D|--7--7--10--10--------------------------------------
A|----------------------------------------------------
E|----------------------------------------------------



E|----------------------------------------------------------------
B|----------------------------------------------------------------
G|----------------10--10--10--10--10--10--10--10--12--12--12--12--
D|--7--7--10--10--------------------------------------------------
A|----------------------------------------------------------------
E|----------------------------------------------------------------



E|------------------------------------------------------
B|------------------------------------------------------
G|------------------9--9--9--9--9--9--9--9--9--9--9--9--
D|----------10--10--------------------------------------
A|--10--10----------------------------------------------
E|------------------------------------------------------



E|-----------------------------------------------------------
B|-----------------------------------------------------------
G|------------------9--9--9--9--9--9--9--12--12--12--12--12--
D|----------10--10-------------------------------------------
A|--10--10---------------------------------------------------
E|-----------------------------------------------------------



E|------------------------------------------------------------------
B|------------------------------------------------------------------
G|------------------10--10--10--10--10--10--10--10--10--10--10--10--
D|----------10--10--------------------------------------------------
A|--12--12----------------------------------------------------------
E|------------------------------------------------------------------



E|------------------------------------------------------------------
B|------------------------------------------------------------------
G|----------------------------------10--10--10--10--10--10--10--10--
D|--12--12--12--12--12--12--12--12----------------------------------
A|------------------------------------------------------------------
E|------------------------------------------------------------------



E|------------------------------------------------------------------
B|------------------------------------------------------------------
G|------------------------------------------------------------------
D|--10--10--10--10--10--10--10--10--10--10--10--10--10--10--10--10--
A|------------------------------------------------------------------
E|------------------------------------------------------------------



E|------------------------------
B|--10--------------------------
G|------9-----------------------
D|---------10--7-------------7--
A|----------------10--7--10-----
E|------------------------------



E|--------------
B|--------------
G|--------------
D|-----7--------
A|--7-----7-----
E|-----------8--



E|---------------------
B|---------------------
G|---------------------
D|--------7------------
A|--7--7-----7---------
E|--------------8--10--



E|----------
B|----------
G|--12--12--
D|----------
A|----------
E|----------



E|--
B|--
G|--
D|--
A|--
E|--
http://www.guitartabcreator.com
Guitar Tab Creator is intended to store guitar tab created through the tool. It currently does not support in-line text editing. Any text you place in here will be lost. If you need to comment on your tab, please use the "Tab Notes" section located below.