Skream - I Love The Way

(/) Slide Up  (\) Slide Down  (h) Hammer On  (p) Pull Off  (b) Bend (r) Release (v) Vibrato


E|--------------------------
B|--------------------------
G|--7--7--7--7--7--7--7--7--
D|--------------------------
A|--------------------------
E|--------------------------



E|------------------
B|------------------
G|------------------
D|------------------
A|------12--13------
E|--10----------13--



E|------------------
B|------------------
G|------------------
D|--12--10----------
A|----------13------
E|--------------13--



E|--------
B|--------
G|--7--7--
D|--------
A|--------
E|--------



E|--
B|--
G|--
D|--
A|--
E|--
http://www.guitartabcreator.com
Guitar Tab Creator is intended to store guitar tab created through the tool. It currently does not support in-line text editing. Any text you place in here will be lost. If you need to comment on your tab, please use the "Tab Notes" section located below.