Skream - How Real (feat. Freckles)

(/) Slide Up  (\) Slide Down  (h) Hammer On  (p) Pull Off  (b) Bend (r) Release (v) Vibrato

E|--------------
B|--------------
G|----------15--
D|------15------
A|--13----------
E|--------------



E|--11------11------11------11------11------13------13------13------13------13------
B|------13------13------13------13------13------13------13------13------13------13--
G|----------------------------------------------------------------------------------
D|----------------------------------------------------------------------------------
A|----------------------------------------------------------------------------------
E|----------------------------------------------------------------------------------



E|--10-----10-----10-----10-----10-----8-----8-----8-----8-----8-----
B|------8------8------8------8------8-----6-----6-----6-----6-----6--
G|-------------------------------------------------------------------
D|-------------------------------------------------------------------
A|-------------------------------------------------------------------
E|-------------------------------------------------------------------



E|--11------11------11------11------11------13------13------13------13------13------
B|------13------13------13------13------13------13------13------13------13------13--
G|----------------------------------------------------------------------------------
D|----------------------------------------------------------------------------------
A|----------------------------------------------------------------------------------
E|----------------------------------------------------------------------------------



E|--18------18------18------18------18------17------17------17------17------17------
B|------18------18------18------18------18------18------18------18------18------18--
G|----------------------------------------------------------------------------------
D|----------------------------------------------------------------------------------
A|----------------------------------------------------------------------------------
E|----------------------------------------------------------------------------------



E|-----------------------------------------------------------------
B|-----------------------------------------------------------------
G|-----------------------------------------------------------------
D|-----------------------------------------------------------------
A|-----------------------------------------------------------------
E|--8--8--8--8--8--8--8--8--8--11--11--11--11--11--11--11--11--11--



E|--------------------------------------------------------
B|--------------------------------------------------------
G|--------------------------------------------------------
D|--------------------------------------------------------
A|--------------------------------------------------------
E|--3--3--3--3--3--3--3--3--3--6--6--6--6--6--6--6--6--6--



E|-----------------------------------------------------------------
B|-----------------------------------------------------------------
G|-----------------------------------------------------------------
D|-----------------------------------------------------------------
A|-----------------------------------------------------------------
E|--8--8--8--8--8--8--8--8--8--11--11--11--11--11--11--11--11--11--



E|--------------------------------------------------------
B|--------------------------------------------------------
G|--------------------------------------------------------
D|--------------------------------------------------------
A|--------------------------------------------------------
E|--3--3--3--3--3--3--3--3--3--1--1--1--1--1--1--1--1--1--
http://www.guitartabcreator.com
Guitar Tab Creator is intended to store guitar tab created through the tool. It currently does not support in-line text editing. Any text you place in here will be lost. If you need to comment on your tab, please use the "Tab Notes" section located below.