Skream - Fields Of Emotion

(/) Slide Up  (\) Slide Down  (h) Hammer On  (p) Pull Off  (b) Bend (r) Release (v) Vibrato

E|-----------------
B|--10------10--8--
G|--7---10--7---5--
D|------8----------
A|-----------------
E|-----------------



E|------
B|--10--
G|------
D|------
A|------
E|------



E|------
B|--11--
G|------
D|------
A|------
E|------



E|-----
B|--8--
G|-----
D|-----
A|-----
E|-----



E|--10--
B|------
G|------
D|------
A|------
E|------



E|------
B|--10--
G|------
D|------
A|------
E|------



E|------
B|--11--
G|------
D|------
A|------
E|------



E|------
B|--13--
G|------
D|------
A|------
E|------



E|------
B|------
G|--14--
D|--12--
A|------
E|------



E|------------------
B|------------------
G|--14------10--14--
D|------12----------
A|------------------
E|------------------



E|------
B|--13--
G|------
D|------
A|------
E|------



E|------------------
B|------------------
G|--14------10--14--
D|------12----------
A|------------------
E|------------------



E|----------
B|--13------
G|------12--
D|----------
A|----------
E|----------



E|------------------
B|------------------
G|--14------10--14--
D|------12----------
A|------------------
E|------------------



E|------
B|--13--
G|------
D|------
A|------
E|------



E|------------------
B|------------------
G|--14------10--14--
D|------12----------
A|------------------
E|------------------



E|----------
B|--13------
G|------12--
D|----------
A|----------
E|----------



E|----------------------17--13----------
B|--------------13--------------13------
G|----------14------14--------------14--
D|------15------------------------------
A|--17----------------------------------
E|--------------------------------------



E|----------------------------------
B|--------------18--------------17--
G|----------17--------------17------
D|------19--------------17----------
A|--20--------------19--------------
E|----------------------------------



E|----------------------17--13----------
B|--------------13--------------13------
G|----------14------14--------------14--
D|------15------------------------------
A|--17----------------------------------
E|--------------------------------------



E|------------------17--15--------------
B|--------------18----------13----------
G|----------17------------------15--14--
D|------19------------------------------
A|--20----------------------------------
E|--------------------------------------



E|--------------------------------------10--12--13--10------12--
B|----------------------------------13------------------13------
G|--14------10--14--10------10--14------------------------------
D|------12--------------14--------------------------------------
A|--------------------------------------------------------------
E|--------------------------------------------------------------



E|--
B|--
G|--
D|--
A|--
E|--
http://www.guitartabcreator.com
Guitar Tab Creator is intended to store guitar tab created through the tool. It currently does not support in-line text editing. Any text you place in here will be lost. If you need to comment on your tab, please use the "Tab Notes" section located below.