Skream - CPU

(/) Slide Up  (\) Slide Down  (h) Hammer On  (p) Pull Off  (b) Bend (r) Release (v) Vibrato

E|-------------0-------------------0-------------0-------------------0--
B|----------------0-------------0-------------------0-------------0-----
G|----------------------------------------------------------------------
D|---------11---------------11---------------11---------------11--------
A|-----11---------------11---------------11---------------11------------
E|--9----------------9----------------9----------------9----------------



E|-----------0-----------------0-----------0-----------------0--
B|--------------0-----------0-----------------0-----------------
G|--------------------------------------------------------8-----
D|--------7--------------7--------------7--------------9--------
A|-----7--------------7--------------7--------------9-----------
E|--5--------------5--------------5--------------7--------------



E|-----------------9-----------9-----------9-----7-----------9--12--
B|--------9-----9-----9-----9-----9-----9-----9-----9-----9---------
G|--6--6-----6-----------6-----------6-----------------6------------
D|------------------------------------------------------------------
A|------------------------------------------------------------------
E|------------------------------------------------------------------



E|---------11--9---------9----------------9--12--11------------------------
B|------9---------12--9-----12--9--12--9--------------------12--10--9--13--
G|-------------------------------------------------------9-----------------
D|--11---------------------------------------------------------------------
A|---------------------------------------------------12--------------------
E|-------------------------------------------------------------------------



E|--------------16--------------16--
B|--13--16--13----------------------
G|------------------13--16--13------
D|----------------------------------
A|----------------------------------
E|----------------------------------



E|--
B|--
G|--
D|--
A|--
E|--
http://www.guitartabcreator.com
Guitar Tab Creator is intended to store guitar tab created through the tool. It currently does not support in-line text editing. Any text you place in here will be lost. If you need to comment on your tab, please use the "Tab Notes" section located below.