Outblast & Angerfist - The Voice Of Mayhem

(/) Slide Up  (\) Slide Down  (h) Hammer On  (p) Pull Off  (b) Bend (r) Release (v) Vibrato

E|-----------------------------------------------
B|-----------7-----------7--5--5--7--5-----------
G|--7--7--7-----6--6--6-----------------7--6--4--
D|-----------------------------------------------
A|-----------------------------------------------
E|-----------------------------------------------



E|--------------------------------------------------
B|-----------7-----------5--7--5--7--5--------------
G|--7--7--7-----6--6--6-----------------7--6--6--4--
D|--------------------------------------------------
A|--------------------------------------------------
E|--------------------------------------------------



E|-----9--9-----10--10-----9--9-----7--7-----7--10--9--
B|-----------------------------------------------------
G|--6--------7----------6--------4--------4------------
D|-----------------------------------------------------
A|-----------------------------------------------------
E|-----------------------------------------------------



E|-----9--9-----10--10-----9--9-----7--7-----7--12--10--
B|------------------------------------------------------
G|--6--------7----------6--------4--------4-------------
D|------------------------------------------------------
A|------------------------------------------------------
E|------------------------------------------------------



E|-----------------
B|-----------8--7--
G|--7--7--7--------
D|-----------------
A|-----------------
E|-----------------
http://www.guitartabcreator.com
Guitar Tab Creator is intended to store guitar tab created through the tool. It currently does not support in-line text editing. Any text you place in here will be lost. If you need to comment on your tab, please use the "Tab Notes" section located below.