OF - Odd Toddlers

(/) Slide Up  (\) Slide Down  (h) Hammer On  (p) Pull Off  (b) Bend (r) Release (v) Vibrato


E|-----------------
B|--3--------------
G|-----4-----------
D|--0-----2--4--2--
A|-----2-----------
E|--------0--2--0--



E|--3--0--0--2--2-----
B|-----------------3--
G|--0--------0--------
D|-----2--2-----4--0--
A|--------------------
E|--------------------
http://www.guitartabcreator.com
Guitar Tab Creator is intended to store guitar tab created through the tool. It currently does not support in-line text editing. Any text you place in here will be lost. If you need to comment on your tab, please use the "Tab Notes" section located below.