Nero - Me & You (Roksonix Remix)

(/) Slide Up  (\) Slide Down  (h) Hammer On  (p) Pull Off  (b) Bend (r) Release (v) Vibrato


E|-----
B|-----
G|-----
D|--7--
A|--7--
E|--5--



E|--10--9--
B|---------
G|---------
D|---------
A|---------
E|---------



E|--12------
B|------10--
G|----------
D|----------
A|----------
E|----------



E|--------------
B|--10--12--13--
G|--------------
D|--------------
A|--------------
E|--------------



E|----------
B|--12--10--
G|----------
D|----------
A|----------
E|----------



E|-----
B|-----
G|-----
D|--7--
A|--7--
E|--5--



E|--10--9--
B|---------
G|---------
D|---------
A|---------
E|---------



E|--12------
B|------10--
G|----------
D|----------
A|----------
E|----------



E|------------------------
B|--13--12----------------
G|----------12--10--9--7--
D|------------------------
A|------------------------
E|------------------------



E|-----
B|-----
G|-----
D|--5--
A|--5--
E|--3--



E|------
B|--10--
G|------
D|------
A|------
E|------



E|-------------------
B|-------------------
G|-------------------
D|---------9--10--7--
A|--7--10------------
E|-------------------



E|------
B|--10--
G|------
D|------
A|------
E|------



E|-----------------------
B|-----------------------
G|-----------------------
D|---------9--10--7------
A|--7--10------------10--
E|-----------------------



E|------
B|--10--
G|------
D|------
A|------
E|------



E|-------------------
B|-------------------
G|-------------------
D|---------9--10--7--
A|--7--10------------
E|-------------------



E|--------------------
B|--------------------
G|--------------------
D|--------------------
A|-----------7--7-----
E|--5--5--5--------5--



E|----------------------
B|----------------------
G|----------------------
D|--9--9--9--9--10------
A|------------------12--
E|----------------------



E|----------------------
B|----------------------
G|----------------------
D|--12--10--------------
A|----------12--10--12--
E|----------------------



E|-------------------
B|-------------------
G|-------------------
D|---------9--10--7--
A|--7--10------------
E|-------------------



E|----------------------
B|----------------------
G|----------------------
D|----------10--12------
A|--10--12----------12--
E|----------------------



E|-----------------------
B|-----------------------
G|-----------------------
D|---------9--10--7------
A|--7--10------------10--
E|-----------------------



E|----------------------
B|----------------------
G|----------------------
D|--12--10--------------
A|----------12--10--12--
E|----------------------



E|----------------------
B|----------------------
G|----------------------
D|---------9--10--7--7--
A|--7--10---------------
E|----------------------



E|--------------------
B|--------------------
G|--------------------
D|--------------------
A|--7--7--7--7--7--7--
E|--------------------



E|--
B|--
G|--
D|--
A|--
E|--
http://www.guitartabcreator.com
Guitar Tab Creator is intended to store guitar tab created through the tool. It currently does not support in-line text editing. Any text you place in here will be lost. If you need to comment on your tab, please use the "Tab Notes" section located below.