Listen to your heart

(/) Slide Up  (\) Slide Down  (h) Hammer On  (p) Pull Off  (b) Bend (r) Release (v) Vibrato


E|----------15--13--12-------------
B|------13--------------15--13--15b
G|--14-----------------------------
D|---------------------------------
A|---------------------------------
E|---------------------------------



E|---------15p12-------------
B|--12h13---------15p13------
G|-----------------------14--
D|---------------------------
A|---------------------------
E|---------------------------



E|----------------------------
B|------13--15b17--13p12--10--
G|--14------------------------
D|----------------------------
A|----------------------------
E|----------------------------



E|-----------------1----------------------------
B|--------------5-----5--3--1--3--3--1--3b3--1--
G|-----------2----------------------------------
D|--------2-------------------------------------
A|-----0----------------------------------------
E|--0-------------------------------------------



E|-----------------1-----------------5-----------
B|--------------5-----5--3--1--8--8-----5--3--1--
G|-----------2-----------------------------------
D|--------2--------------------------------------
A|-----0-----------------------------------------
E|--0--------------------------------------------



E|---------------------------------------
B|-------------1--1-----3--1--3--3--1--3b
G|--------0h2--------2-------------------
D|---------------------------------------
A|-----0---------------------------------
E|--0------------------------------------



E|-----------------
B|-----------------
G|--7h9p7/5h7p5/2--
D|-----------------
A|-----------------
E|-----------------



E|-------3--
B|----------
G|--2/5-----
D|----------
A|----------
E|----------
http://www.guitartabcreator.com
Guitar Tab Creator is intended to store guitar tab created through the tool. It currently does not support in-line text editing. Any text you place in here will be lost. If you need to comment on your tab, please use the "Tab Notes" section located below.