worship open D

(/) Slide Up  (\) Slide Down  (h) Hammer On  (p) Pull Off  (b) Bend (r) Release (v) Vibrato

E|----------------------------------|----------------------------------------|----------------------
B|--------7--------7-----5-------8--|--------7--------7-----5-------8--8/10--|----------7-----7-----
G|-----7-----7--------7-----7/9-----|-----7-----7--------7-----7/9-----------|-------7-----7--------
D|--0-----------0-------------------|--0-----------0-------------------------|--7h9-----------------
A|----------------------------------|----------------------------------------|----------------------
E|----------------------------------|----------------------------------------|----------------------



E|----------------------------|-----------|-----
B|---------------5------------|--7--5--8--|--7--
G|--6h7p6-----6-----6--6h7p6--|--7--7--7--|--7--
D|---------7------------------|--0--0--0--|--0--
A|----------------------------|-----------|-----
E|----------------------------|-----------|-----
http://www.guitartabcreator.com
Guitar Tab Creator is intended to store guitar tab created through the tool. It currently does not support in-line text editing. Any text you place in here will be lost. If you need to comment on your tab, please use the "Tab Notes" section located below.