Warm Frenzy triplets

(/) Slide Up  (\) Slide Down  (h) Hammer On  (p) Pull Off  (b) Bend (r) Release (v) Vibrato

E|--------------------------------------------------------------
B|--------------------------------------------------------------
G|--------------10--12--10--12--13--12--10--13--12--10----------
D|--10--12--13------------------------------------------13--12--
A|--------------------------------------------------------------
E|--------------------------------------------------------------



E|-----------------------------|-----------------------|-----------------------
B|-----------------------------|-----------------------|-----------------------
G|--------------12p10--10--12--|-----------5-----5--7--|-----------5-----5--7--
D|--10--12--13-----------------|--5--7--8-----7--------|--5--7--8-----8--------
A|-----------------------------|-----------------------|-----------------------
E|-----------------------------|-----------------------|-----------------------
http://www.guitartabcreator.com
Guitar Tab Creator is intended to store guitar tab created through the tool. It currently does not support in-line text editing. Any text you place in here will be lost. If you need to comment on your tab, please use the "Tab Notes" section located below.