Dm - C - Am - Bb Chord Sweep intro and lead verse

(/) Slide Up  (\) Slide Down  (h) Hammer On  (p) Pull Off  (b) Bend (r) Release (v) Vibrato


E|-----------------------------------------------------------------------------
B|-----------5--6-----------5--5h6p5-----------------5-----------5h6h8p6p5-----
G|--------7--------------7------------7--5--------7-----------7-------------7--
D|-----7--------------7------------------------7-----------7-------------------
A|--5--------------5------------------------5-----------5----------------------
E|-----------------------------------------------------------------------------



E|-----------------------------------------------------------------------------
B|-----------5h6--5-----------------3------------------------------------------
G|--------7----------7--5--------5--------------5-----5-----------------7/9\7--
D|-----7----------------------5--------------7-----7-----7--7--------8---------
A|--5----------------------3--------------7-----------------------8------------
E|-------------------------------------5-----------------------6---------------
http://www.guitartabcreator.com
Guitar Tab Creator is intended to store guitar tab created through the tool. It currently does not support in-line text editing. Any text you place in here will be lost. If you need to comment on your tab, please use the "Tab Notes" section located below.