Anthem ( standard Eb)

(/) Slide Up  (\) Slide Down  (h) Hammer On  (p) Pull Off  (b) Bend (r) Release (v) Vibrato


E|--------------------------------------|-----------------------------------------------
B|--------------------------------------|-----------0-----------------------------------
G|-----------4-----------4--------------|--------0-----0--------------0-----------------
D|--------5-----5-----5-----4h5p4-------|-----4-----------4--------5-----5\4------------
A|-----7---------------------------5p7--|--2-----------------2--3-------------2---------
E|--0--------------0--------------------|----------------------------------------3p2p0--



E|-----0------------------------------|--------------------------------------------
B|-----0-------------------4h5--4-----|--------------------------------------------
G|-----9----------4----------------4--|-------4----------0-------------------------
D|--9--9-------------4----------------|-------5-------5-----5\4--4-----------------
A|--7--7--4h6--4--------4-------------|-------5--2/3-------------2--3--2-----------
E|--0--0------------------------------|--0h3--3---------------------------5--3--0--
http://www.guitartabcreator.com
Guitar Tab Creator is intended to store guitar tab created through the tool. It currently does not support in-line text editing. Any text you place in here will be lost. If you need to comment on your tab, please use the "Tab Notes" section located below.