None1

(/) Slide Up  (\) Slide Down  (h) Hammer On  (p) Pull Off  (b) Bend (r) Release (v) Vibrato


E|-------------------------------------------------------------------------------------------------
B|------------------------8--8-----------8--8-----------8--8-----------8--8------------------------
G|------------------------7--7-----------7--7-----------7--7-----------7--7------------------------
D|------------------------6--6-----------6--6-----------6--6-----------6--6------------------------
A|-----10--9--7--5--7-----7--7-----------7--7-----------7--7-----------7--7-----10--9--7--5--7-----
E|--0------------------0--------------0--------------0--------------0--------0---------------------



E|------------------------------
B|--10----8-----6----4----------
G|--10----9-----6----5----------
D|--10----10----6----6----------
A|--8-----10----4----6----------
E|--------8----------4----------
http://www.guitartabcreator.com
Guitar Tab Creator is intended to store guitar tab created through the tool. It currently does not support in-line text editing. Any text you place in here will be lost. If you need to comment on your tab, please use the "Tab Notes" section located below.