When Will Someday Come?

(/) Slide Up  (\) Slide Down  (h) Hammer On  (p) Pull Off  (b) Bend (r) Release (v) Vibrato

Capo 3
Verse 1
C Am
E|--------------------------------------------------------------------------------------------------
B|-----1-----------1-----------1-----------1-----------1-----------1-----------1-----------1--------
G|-----------0-----------0-----------0-----------0-----------2-----------2-----------2-----------2--
D|--------2-----------2-----------2-----------2-----------2-----------2-----------2-----------2-----
A|--3-----------3-----------3-----------3-----------0-----------0-----------0-----------0-----------
E|--------------------------------------------------------------------------------------------------


Em A9 Am
E|--------------------------------------------------------------------------------------------------
B|-----0-----------0-----------0-----------0-----------0-----------0-----------1-----------1--------
G|-----------0-----------0-----------0-----------0-----------2-----------2-----------2-----------2--
D|--------2-----------2-----------2-----------2-----------2-----------2-----------2-----------2-----
A|--2-----------2-----------2-----------2-----------0-----------0-----------0-----------0-----------
E|--------------------------------------------------------------------------------------------------

Verse 2
G C
E|--------------------------------------------------------------------------------------------------
B|-----0-----------0-----------0-----------0-----------1-----------1-----------1-----------1--------
G|-----------0-----------0-----------0-----------0-----------0-----------0-----------0-----------0--
D|--------0-----------0-----------0-----------0-----------2-----------2-----------2-----------2-----
A|--------------------------------------------------3-----------3-----------3-----------3-----------
E|--3-----------3-----------3-----------3-----------------------------------------------------------


Am Em (After G again for 4 measures)
E|--------------------------------------------------------------------------------------------------
B|-----1-----------1-----------1-----------1-----------0-----------0-----------0-----------0--------
G|-----------2-----------2-----------2-----------2-----------0-----------0-----------0-----------0--
D|--------2-----------2-----------2-----------2-----------2-----------2-----------2-----------2-----
A|--0-----------0-----------0-----------0-----------2-----------2-----------2-----------2-----------
E|--------------------------------------------------------------------------------------------------

Chorus
D A
E|--------------------------------------------------------------------------------------------------
B|-----3-----------3-----------3-----------3-----------2-----------2-----------2-----------2--------
G|-----------2-----------2-----------2-----------2-----------2-----------2-----------2-----------2--
D|--------0-----------0-----------0-----------0-----------2-----------2-----------2-----------2-----
A|--0-----------0-----------0-----------0-----------0-----------0-----------0-----------0-----------
E|--------------------------------------------------------------------------------------------------


F C
E|--------------------------------------------------------------------------------------------------
B|-----1-----------1-----------1-----------1-----------1-----------1-----------1-----------1--------
G|-----------2-----------2-----------2-----------2-----------0-----------0-----------0-----------0--
D|--------3-----------3-----------3-----------3-----------2-----------2-----------2-----------2-----
A|--0-----------0-----------0-----------0-----------3-----------3-----------3-----------3-----------
E|--------------------------------------------------------------------------------------------------

http://www.guitartabcreator.com
Guitar Tab Creator is intended to store guitar tab created through the tool. It currently does not support in-line text editing. Any text you place in here will be lost. If you need to comment on your tab, please use the "Tab Notes" section located below.