When All Is Done

(/) Slide Up  (\) Slide Down  (h) Hammer On  (p) Pull Off  (b) Bend (r) Release (v) Vibrato

Chorus(x2)
E|-------------------0--------------0------------------------------------------------
B|----3----3----3---------3----------------------------------------------------------
G|-----------------------------0---------------0----0----0----0----0----0----0----0--
D|----------------------------------------0------------------------------------------
A|--3----3----3----3----3----3----3----3---------------------------------------------
E|-------------------------------------------3----3----3----3----3----3----3----3----

Verse(x3)
E|----------------------------------------------------------------------------------------
B|----1----1----1----1----1----1----1----1------------------------------------------------
G|---------------------------------------------0----0----0----0----0----0----0----0----0--
D|------------------------------------------2---------------------------------------------
A|--3----3----3----3----3----3----3----3--------------------------------------------------
E|------------------------------------------------3----3----3----3----3----3----3----3----

Bridge(x2)
E|------------------------------------------------------------------------------------
B|----1----1----1----1----1----1----1-------------------------------------------------
G|----------------------------------------2-----0----0----0----0----0----0----0----0--
D|--2----2----2----2----2----2----2----0----------------------------------------------
A|--------------------------------------------2----2----2----2----2----2----2----2----
E|------------------------------------------------------------------------------------




http://www.guitartabcreator.com
Guitar Tab Creator is intended to store guitar tab created through the tool. It currently does not support in-line text editing. Any text you place in here will be lost. If you need to comment on your tab, please use the "Tab Notes" section located below.