untilted

(/) Slide Up  (\) Slide Down  (h) Hammer On  (p) Pull Off  (b) Bend (r) Release (v) Vibrato
Capo 2
Verse
C G(2times) Bm
E|--------------------0-----------------------------------2-----------------2--------------2--
B|--3-----------------------------------0-----------------------------3--------------3--------
G|--------0-----0-----------0-----0-----------0-----0-----------4--------------4--------------
D|-----2-----------2-----2-----------2-----0-----------0-----4-----4--------4-----------4-----
A|--3--------3--------3--------3-----------------2--------2--------------2--------2-----------
E|--------------------------------------3-----------------------------------------------------


A
E|--0--------------0--------------0-----
B|--------------2-----------2-----------
G|--------2-----------2-----------------
D|-----2-----2-----2-----------2--------
A|--0--------------------0--------------
E|-----------------------------------3--

Bridge
Am Em
E|-----------------------------------------------------------------------0--
B|--1-----------------1-----------------0-----------0-----0--------0--------
G|--------2-----2-----------2-----2-----------0--------------0--------------
D|-----2-----------2-----2-----------2-----2-----2--------2-----------2-----
A|--0--------0--------0--------0--------2--------------2--------2-----------
E|--------------------------------------------------------------------------
http://www.guitartabcreator.com
Guitar Tab Creator is intended to store guitar tab created through the tool. It currently does not support in-line text editing. Any text you place in here will be lost. If you need to comment on your tab, please use the "Tab Notes" section located below.