Beat it - lead guitar (følger melodien)

(/) Slide Up  (\) Slide Down  (h) Hammer On  (p) Pull Off  (b) Bend (r) Release (v) Vibrato
E|------------------------------------------
B|--12-----12-----12-----12--15--12---------
G|------14b----14b----14b------------14/16--
D|------------------------------------------
A|------------------------------------------
E|------------------------------------------



E|---------------------------------------
B|--12-----12-----12---------------------
G|------14b----14b----14--12--14--12/16--
D|---------------------------------------
A|---------------------------------------
E|---------------------------------------



E|---------------------------------------------
B|---------------------------------------------
G|--16\14--12------------------11------12--12--
D|-------------14--12--16--16------16----------
A|---------------------------------------------
E|---------------------------------------------



E|--------------|--|-------------|--------
B|--------------|--|-------------|--------
G|--14--12------|--|------11-----|--------
D|----------14--|--|--14------12/|--------
A|--------------|--|-------------|--------
E|--------------|--|-------------|--------



E|----------------------------
B|--12-----12--15--12---------
G|------14b------------14/16--
D|----------------------------
A|----------------------------
E|----------------------------



E|------------------------------------------------------------
B|------------------------------------------------------------
G|--13--13--9--9--13--13--8--8--15--15--15--12--15b12--15b12--
D|--13--13--9--9--13--13--8--8--------------------------------
A|------------------------------------------------------------
E|------------------------------------------------------------



E|--------------------------------------------------
B|--------------------------------------------------
G|--15--14--12--14--12--14--15--14--12--14--12--14--
D|--12--12--12--12--12--12--12--12--12--12--12--12--
A|--------------------------------------------------
E|--------------------------------------------------



E|--------------------------------------------------------------
B|----------------------------------------------------------15--
G|--14--12----------11------14--12----------11------14--11------
D|----------14--14------12----------14--14------12--------------
A|--------------------------------------------------------------
E|--------------------------------------------------------------
http://www.guitartabcreator.com
Guitar Tab Creator is intended to store guitar tab created through the tool. It currently does not support in-line text editing. Any text you place in here will be lost. If you need to comment on your tab, please use the "Tab Notes" section located below.