track 7 run

(/) Slide Up  (\) Slide Down  (h) Hammer On  (p) Pull Off  (b) Bend (r) Release (v) Vibrato

Stave 1:

E|-----------------------------------------------------------
B|-----------------------------------------------------------
G|-----------------------0h2h5/7\5p2p0-----------------------
D|----------------0h3h5-----------------5p3p0----------------
A|---------0h3h5-------------------------------5p3p0---------
E|--0h3h5---------------------------------------------5p3p0--

Stave 2:

E|--------------------------------------------------------------------------
B|--------------------------------------------------------------------------
G|-----------------------------7h9h12/14\12p9p7-----------------------------
D|--------------------7h10h12--------------------12p10p7--------------------
A|-----------7h10h12--------------------------------------12p10p7-----------
E|--7h10h12--------------------------------------------------------12p10p7--

http://www.guitartabcreator.com
Guitar Tab Creator is intended to store guitar tab created through the tool. It currently does not support in-line text editing. Any text you place in here will be lost. If you need to comment on your tab, please use the "Tab Notes" section located below.