potential bridge

(/) Slide Up  (\) Slide Down  (h) Hammer On  (p) Pull Off  (b) Bend (r) Release (v) Vibrato

Stave 1:

E|----------------------------------------------------------------
B|----------------------------------------------------------------
G|----------------------------------------------------------------
D|-----------------------------------------------3--5/7--5--3-----
A|--5----3--5----3--5----3--5----3--5----3--5------------------3--
E|----------------------------------------------------------------

Stave 2:

E|----------------------------------------------------------------
B|----------------------------------------------------------------
G|----------------------------------------------------------------
D|-----------------------------------------------3--3/5--3--0--3--
A|--5----3--5----3--5----3--5----3--5----3--5---------------------
E|----------------------------------------------------------------

Stave 3:

E|------------------------------------------------------------------------
B|------------------------------------------------------------------------
G|------------------------------------------------------------------------
D|-----------------------------------------------0----7--5--0----5--3--0--
A|--3----0--3----0--3----0--3----0--3----0--3-----------------------------
E|------------------------------------------------------------------------

Stave 4:

E|-----------------------------------------------------------------
B|-----------------------------------------------------------------
G|-----------------------------------------------------------------
D|---------------------------------------------5-------------7-----
A|--5----3--5----3--5----3--5----3----5--3--0-------5--3--0--------
E|-----------------------------------------------------------------

http://www.guitartabcreator.com
Guitar Tab Creator is intended to store guitar tab created through the tool. It currently does not support in-line text editing. Any text you place in here will be lost. If you need to comment on your tab, please use the "Tab Notes" section located below.