drop b

(/) Slide Up  (\) Slide Down  (h) Hammer On  (p) Pull Off  (b) Bend (r) Release (v) Vibrato

Stave 1:

E|--------------|--
B|--------------|--
G|--------------|--
D|--3--3--3-----|--
A|--------------|--
E|-----------4--|--

Stave 2:

E|------------------------------------------------------------------|--
B|------------------------------------------------------------------|--
G|------------------------------------------------------------------|--
D|------------------------------------------------------3--3--3-----|--
A|------------------------------------------------------------------|--
E|--4--4----4--4--4----4--4----4--4--4----4--4----4--4-----------4--|--

Stave 3:

E|-------------------------------------------------------------------|--
B|-------------------------------------------------------------------|--
G|-------------------------------------------------------------------|--
D|-------------------------------------------------------3--3--3-----|--
A|-------------------------------------------------------------------|--
E|--4----4--4--4--4--4--4--4--4--4--4--4--4--4--4--4--4-----------4--|--

Stave 4:

E|---------------------------------------------------------------|--
B|---------------------------------------------------------------|--
G|---------------------------------------------------------------|--
D|-----3---------------3---------------3-------------------------|--
A|---------------------------------------------------------------|--
E|--4-----4----4----4-----4----4----4-----4----2h4----2--2--4----|--

Stave 5:

E|-------------------------------------------------|--
B|-------------------------------------------------|--
G|-------------------------------------------------|--
D|-----3-----3-----3-----3-----3-----4--4--4--4----|--
A|-------------------------------------------------|--
E|--4-----4-----4-----4-----4-----4----------------|--

Stave 6:

E|------------------------------------------------|--
B|------------------------------------------------|--
G|------------------------------------------------|--
D|--4--4--4--4/7--7--7--7\2--2--2--2--5--4--5--4--|--
A|------------------------------------------------|--
E|------------------------------------------------|--

Stave 7:

E|------------------------------------|--------------|--------------|--
B|------------------------------------|--------------|--------------|--
G|------------------------------------|--------------|--------------|--
D|------------------------------------|--------------|--3--3--3-----|--
A|------------------------------------|--------------|--------------|--
E|--4--4--4--4/7--7--7--7\2--2--2--2--|--5--4--5--4--|-----------4--|--

Stave 8:

E|------------------------------------------------------------|--
B|------------------------------------------------------------|--
G|------------------------------------------------------------|--
D|------------------------------------------------------------|--
A|------------------------------------------------------------|--
E|--4--4--4--4--4--4--4--4--4--4--4--4------4----2----1----0--|--

Stave 9:

E|-----------------------------------------------------|--
B|-----------------------------------------------------|--
G|-----------------------------------------------------|--
D|-----------------------------------------------------|--
A|-------------------------5----4----3----2----1----0--|--
E|--0--0--0--0--0--0--0--------------------------------|--

http://www.guitartabcreator.com
Guitar Tab Creator is intended to store guitar tab created through the tool. It currently does not support in-line text editing. Any text you place in here will be lost. If you need to comment on your tab, please use the "Tab Notes" section located below.