6

(/) Slide Up  (\) Slide Down  (h) Hammer On  (p) Pull Off  (b) Bend (r) Release (v) Vibrato

Stave 1:

E|-------------------------------------
B|-------------------------------------
G|--10--7--------------10--12--10--12--
D|---------0---------------------------
A|------------8--5---------------------
E|------------------0------------------

Stave 2:

E|---------------------------------
B|---------------------------------
G|--10--7--------------------------
D|---------0-----------------------
A|------------8--5-----3--5--3--5--
E|------------------0--------------

http://www.guitartabcreator.com
Guitar Tab Creator is intended to store guitar tab created through the tool. It currently does not support in-line text editing. Any text you place in here will be lost. If you need to comment on your tab, please use the "Tab Notes" section located below.