My Heart Will Go On Verse

(/) Slide Up  (\) Slide Down  (h) Hammer On  (p) Pull Off  (b) Bend (r) Release (v) Vibrato
E|--0--------0--0-----0--------0-----------0--------0-----------2-----4-----5p4-----2--0-----
B|--------------------------4--------------------4--------------------5-------------4--------
G|--------3-----------------------------2--------------------0-----0--4--4-------------------
D|-----4-----------4-----0-----------2--------0-----------0-------------------------------0--
A|--------------------------0-----0----------------------------------------------0-----------
E|--0--------------------------------------------5-----5-------------------------------------



E|--0--------0--0-----0--------0-----------0-----------------------0-----------0--2--0h2p0-----0--
B|--------------------------4--------------------0--------------0--------0------------------4-----
G|--------3-----------------------------2--------------0-----0--------4-----4---------------------
D|-----4-----------4-----0-----------2--------0-----0-----4---------------------------------------
A|--------------------------0-----0-----------------------------------------------0---------------
E|--0--------------------------------------------5--------------------5---------------------------



E|-----------0--0-----0--------0-----------0--------0-----------2-----4-----5p4-----2--0-----
B|--------------------------4--------------------4--------------------5-------------4--------
G|--------3-----------------------------2--------------------0-----0--4--4-------------------
D|-----4-----------4-----0-----------2--------0-----------0-------------------------------0--
A|--------------------------0-----0----------------------------------------------0-----------
E|--0--------------------------------------------5-----5-------------------------------------



E|--0--------0--0-----0--------0-----------0-----------------------0-----0-----4--------0--
B|--------------------------4--------------------0--------------0-----------7-----7--------
G|--------4-----------------------------2--------------0-----0--------4--------------------
D|-----4-----------4-----0-----------2--------0-----0-----4--------------------------------
A|--2-----------------------0-----0-----------------------------------0--------0-----0-----
E|-----------------------------------------------5-----------------------------------------
http://www.guitartabcreator.com
Guitar Tab Creator is intended to store guitar tab created through the tool. It currently does not support in-line text editing. Any text you place in here will be lost. If you need to comment on your tab, please use the "Tab Notes" section located below.