compo

(/) Slide Up  (\) Slide Down  (h) Hammer On  (p) Pull Off  (b) Bend (r) Release (v) Vibrato
E|--4--2--0--4--2--0--4--2--|--5--4--2--5--4--2--5--4--|--4--2--0--4--2--0--4--2--|--
B|--------------------------|--------------------------|--------------------------|--
G|--------------------------|--------------------------|--------------------------|--
D|--------------------------|--------------------------|--------------------------|--
A|--------------------------|--------------------------|--------------------------|--
E|--------------------------|--------------------------|--------------------------|--



E|--------------------------|--4--2--0--4--2--0--4--2--|--7--5--4--7--5--4--7--5--|--4--2--0-----
B|--5--4--0--5--4--0--5--4--|--------------------------|--------------------------|--------------
G|--------------------------|--------------------------|--------------------------|--------------
D|--------------------------|--------------------------|--------------------------|--------------
A|--------------------------|--------------------------|--------------------------|--------------
E|--------------------------|--------------------------|--------------------------|--------------



E|--4--2--0--4--2--|-----------|--4h5h7p5p4p0--|-------------|-------------|--4--5--4-----|--
B|-----------------|--5--4--0--|---------------|--4/5\4\2p0--|--4/5\4/5/7--|-----------5--|--
G|-----------------|-----------|---------------|-------------|-------------|--------------|--
D|-----------------|-----------|---------------|-------------|-------------|--------------|--
A|-----------------|-----------|---------------|-------------|-------------|--------------|--
E|-----------------|-----------|---------------|-------------|-------------|--------------|--



E|--4h5p4-----4h5p4-----|--4--5--4--7--4--9--0--11--12--|--4--2--0--4--2--4--|--5--4--2--5--4--2--|--
B|---------5---------5--|-------------------------------|--------------------|--------------------|--
G|----------------------|-------------------------------|--------------------|--------------------|--
D|----------------------|-------------------------------|--------------------|--------------------|--
A|----------------------|-------------------------------|--------------------|--------------------|--
E|----------------------|-------------------------------|--------------------|--------------------|--



E|--4--2--0--4--2--|--5--4--2--5--4--2--|--4--2--0--4--2--0--|--------------|--4--2--0--4--2--|-----
B|-----------------|--------------------|--------------------|--5--4--2--0--|-----------------|-----
G|-----------------|--------------------|--------------------|--------------|-----------------|-----
D|-----------------|--------------------|--------------------|--------------|-----------------|-----
A|-----------------|--------------------|--------------------|--------------|-----------------|-----
E|-----------------|--------------------|--------------------|--------------|-----------------|-----



E|--7--5--4--7--5--4--|--4--2--0--4--2--0--|-----------|--9v------9--|--11--12--11--9--|----------|-----
B|--------------------|--------------------|--5--4--0--|-------------|-----------------|--7--7/9--|-----
G|--------------------|--------------------|-----------|-------------|-----------------|----------|-----
D|--------------------|--------------------|-----------|-------------|-----------------|----------|-----
A|--------------------|--------------------|-----------|-------------|-----------------|----------|-----
E|--------------------|--------------------|-----------|-------------|-----------------|----------|-----



E|------|--9----9--|--11--12--11--9--|--14--16--14--|--16b17--|--4--2--0--2--|--5--4--2--4--|-----
B|--7v--|----------|-----------------|--------------|---------|--------------|--------------|-----
G|------|----------|-----------------|--------------|---------|--------------|--------------|-----
D|------|----------|-----------------|--------------|---------|--------------|--------------|-----
A|------|----------|-----------------|--------------|---------|--------------|--------------|-----
E|------|----------|-----------------|--------------|---------|--------------|--------------|-----



E|--4--2--0--2--0--|--------------|--4p0h2p0h4p0h2p0h4p0h2p0h4p0h2p0--|--h7p0h5p---
B|-----------------|--5--4--2--0--|-----------------------------------|------------
G|-----------------|--------------|-----------------------------------|------------
D|-----------------|--------------|-----------------------------------|------------
A|-----------------|--------------|-----------------------------------|------------
E|-----------------|--------------|-----------------------------------|------------



E|-0h7p0h5p0h7p0h5p0h7p0h5p0-|-4p0h2p0h4p0h2p0h4-----------------
B|---------------------------|-----------------------------------
G|---------------------------|-----------------------------------
D|---------------------------|-----------------------------------
A|---------------------------|-----------------------------------
E|---------------------------|-----------------------------------



E|-0h2p0h4p0h2p0-|---------|-6/7-9-7----|---------|-6/7-9-7---|--------------|-
B|---------------|-4h5-4-0-|---------9v-|-4/5--/7-|---------9-|-4-4/5--5-5/7-|-
G|---------------|---------|------------|---------|-----------|--------------|-
D|---------------|---------|------------|---------|-----------|--------------|-
A|---------------|---------|------------|---------|-----------|--------------|-
E|---------------|---------|------------|---------|-----------|--------------|-



E|-------------|-4-2-0-4-2-0-4-0-|-5-4-2-5-4-2-5-2-|-4-2-0-4-2-0-4-2-|---------|-4-2-0-4-2-0-4-0-|-
B|-7-7/9h10-12-|-----------------|-----------------|-----------------|-5-4-0-2-|-----------------|-
G|-------------|-----------------|-----------------|-----------------|---------|-----------------|-
D|-------------|-----------------|-----------------|-----------------|---------|-----------------|-
A|-------------|-----------------|-----------------|-----------------|---------|-----------------|-
E|-------------|-----------------|-----------------|-----------------|---------|-----------------|-



E|-7-5-4-7-5-4-7-5-|-4-2-0-4-2-0-4-2-|-----------------|-
B|-----------------|-----------------|-5-4-2-4-2-4/5v--|-
G|-----------------|-----------------|-----------------|-
D|-----------------|-----------------|-----------------|-
A|-----------------|-----------------|-----------------|-
E|-----------------|-----------------|-----------------|-
http://www.guitartabcreator.com
Guitar Tab Creator is intended to store guitar tab created through the tool. It currently does not support in-line text editing. Any text you place in here will be lost. If you need to comment on your tab, please use the "Tab Notes" section located below.