Gabby

(/) Slide Up  (\) Slide Down  (h) Hammer On  (p) Pull Off  (b) Bend (r) Release (v) Vibrato

E|-----------------------------------------------------------------
B|-------6-------6-------6-------6-------5-------5-------5-----5---
G|-----9-------9-------9-------9-------7-------7-------7---------7-
D|---7-------7-------7-------7-------6-------6-------6-------6-----
A|-8-------8-------8-------8-------7-------7-------7-------7-------
E|-----------------------------------------------------------------



E|-------------------------------------------------------------------
B|-------1-------1-------1-------1-------1-------1-0-----------------
G|-----0-------0-------0-------0-------0-------0---------------------
D|---2-------2-------2-------2-------0-------0-----------------------
A|-0-------0-------0-------0-----------------------------------------
E|---------------------------------3-------3-------3-----------------



E|-------1-------1-------1-------1---------------------------------
B|-----1-------1-------1-------1---------1-------1-------1-------1-
G|---2-------2-------2-------2---------0-------0-------0-------0---
D|-0-------0-------0-------0---------2-------2-------2-------2-----
A|---------------------------------3-------3-------3-------3-------
E|-----------------------------------------------------------------



E|---------------------------------------------------------------------------------------------------------
B|-----------3-----------3-----------3-----------3-----------1-----------1--3------------------------------
G|--------2-----------2-----------2-----------2-----------0-----------0-----0------------------------------
D|-----3-----------3-----------3-----------3-----------2-----------2--------0------------------------------
A|--1-----------1-----------1-----------1-----------0-----------0-----------5------------------------------
E|---------------------------------------------------------------------------------------------------------
http://www.guitartabcreator.com
Guitar Tab Creator is intended to store guitar tab created through the tool. It currently does not support in-line text editing. Any text you place in here will be lost. If you need to comment on your tab, please use the "Tab Notes" section located below.