zz ward melody

(/) Slide Up  (\) Slide Down  (h) Hammer On  (p) Pull Off  (b) Bend (r) Release (v) Vibrato
E|-------1----------1-----1----------1-----
B|--1h3-----3--1h3-----3-----3--1h3-----3--
G|-----------------------------------------
D|-----------------------------------------
A|-----------------------------------------
E|-----------------------------------------



E|--------1---------------------------------1---------------------------------
B|-----1-----3--1--1--3b3--1--3--3--1--3b3-----3--1--1--3b3--1--3--3--1--3b3--
G|--2-------------------------------------------------------------------------
D|----------------------------------------------------------------------------
A|----------------------------------------------------------------------------
E|----------------------------------------------------------------------------



E|---------------------------
B|--8--6-----6--8--6-----10--
G|--------7-----------7------
D|---------------------------
A|---------------------------
E|---------------------------
http://www.guitartabcreator.com
Guitar Tab Creator is intended to store guitar tab created through the tool. It currently does not support in-line text editing. Any text you place in here will be lost. If you need to comment on your tab, please use the "Tab Notes" section located below.