jstarr song 3: 1. Introx4 2.versex4 3. versex2 4. verse x2

(/) Slide Up  (\) Slide Down  (h) Hammer On  (p) Pull Off  (b) Bend (r) Release (v) Vibrato


E|-------------------------
B|-------------------------
G|-------------------------
D|------14--12--12h14--12--
A|--12---------------------
E|-------------------------



E|--------------------------------------------------------------------------
B|----------------------------------19--19--19--19--18--18------------------
G|-----------2--15----------------------------------------------------------
D|-----9------------16--16--16--20------------------------------------------
A|--7-----------------------------------------------------------------------
E|--------3-------------------------------------------------19--19--18--18--



E|--------------
B|--------------
G|-----------2--
D|-----7--------
A|--5-----------
E|--------3-----



E|-------------------------------------
B|-------------------------------------
G|----------------------------------2--
D|-------------------------------------
A|--5--5--5--5--5--7h9--7--7-----------
E|----------------------------9--3-----



E|-------------------------------------------------------------------------------------------------------
B|-------------------------------------------------------------------------------------------------------
G|-------------------------------------------------------------------------------------------------------
D|--------------7--7--------------------------------------------------------7--7--9--11--11--11--11--11--
A|--5--5--5--5--------5--5--------------------------7--7--7--7--9--9--9--9-------------------------------
E|--------------------------9--9--9--9--7--7--9--9-------------------------------------------------------
http://www.guitartabcreator.com
Guitar Tab Creator is intended to store guitar tab created through the tool. It currently does not support in-line text editing. Any text you place in here will be lost. If you need to comment on your tab, please use the "Tab Notes" section located below.