jstarr song 2: 1. intro/verse 2. chorus

(/) Slide Up  (\) Slide Down  (h) Hammer On  (p) Pull Off  (b) Bend (r) Release (v) Vibrato


E|--------------------
B|--------------------
G|--------------------
D|-----5--7--2--------
A|--3-----------------
E|--------------3--5--



E|--------------------------
B|--------------------------
G|--------2--4--2--0--2--4--
D|--2--5--------------------
A|--------------------------
E|--------------------------
http://www.guitartabcreator.com
Guitar Tab Creator is intended to store guitar tab created through the tool. It currently does not support in-line text editing. Any text you place in here will be lost. If you need to comment on your tab, please use the "Tab Notes" section located below.