jstarr song 1: 1. verse 2. riffx2

(/) Slide Up  (\) Slide Down  (h) Hammer On  (p) Pull Off  (b) Bend (r) Release (v) Vibrato


E|-----------------
B|-----------------
G|-----------------
D|-----------------
A|--9-----7--9-----
E|-----9--------7--



E|------------------------------------------------------------------------------
B|------------------------------------------------------------------------------
G|------9--11--9----------------------------------------------------------------
D|--11------------9--11--9--9---------9--11----------------9--11----------------
A|-----------------------------9--12---------9--9--12--12---------9--9--12--12--
E|------------------------------------------------------------------------------
http://www.guitartabcreator.com
Guitar Tab Creator is intended to store guitar tab created through the tool. It currently does not support in-line text editing. Any text you place in here will be lost. If you need to comment on your tab, please use the "Tab Notes" section located below.