jstar song 4: 1. Intro/Chorus 2.versex2

(/) Slide Up  (\) Slide Down  (h) Hammer On  (p) Pull Off  (b) Bend (r) Release (v) Vibrato


E|----------------------------------------------------
B|----------------------------------------------------
G|--9--9--9--9--6--6--6--6---------------6/4\6--6-----
D|--------------------------7--7--7\9/7------------7--
A|----------------------------------------------------
E|----------------------------------------------------



E|--------------------------------------------------------------------------------|--------------
B|--------------------------------------------------------------------------------|--------------
G|--------------------------------6--6--6--6--4--4--4--4--4--6--6--6--6--6--6--6--|-----6--6-----
D|--2--2--2--2--2--4--4--4--4--4--------------------------------------------------|--------------
A|--------------------------------------------------------------------------------|--5--------5--
E|--------------------------------------------------------------------------------|--------------
http://www.guitartabcreator.com
Guitar Tab Creator is intended to store guitar tab created through the tool. It currently does not support in-line text editing. Any text you place in here will be lost. If you need to comment on your tab, please use the "Tab Notes" section located below.