Needle (Acoustic) (Intro)

(/) Slide Up  (\) Slide Down  (h) Hammer On  (p) Pull Off  (b) Bend (r) Release (v) Vibrato

E|--3--1--0---------3--1--0---------3--1--0----3--1--0-----
B|-----------3p1h3-----------3p1h3-------------------------
G|---------------------------------------------------------
D|---------------------------------------------------------
A|---------------------------------------------------------
E|---------------------------------------------------------



E|------------------------------------------------------
B|-----1-------1-------1-------1-------1-------------1--
G|------------------------------------------------------
D|------------------------------------------------------
A|--3-------3-----------------------0-------2--3--------
E|------------------1-------1---------------------1-----
http://www.guitartabcreator.com
Guitar Tab Creator is intended to store guitar tab created through the tool. It currently does not support in-line text editing. Any text you place in here will be lost. If you need to comment on your tab, please use the "Tab Notes" section located below.