Angel of Mine (intro)

(/) Slide Up  (\) Slide Down  (h) Hammer On  (p) Pull Off  (b) Bend (r) Release (v) Vibrato

E|----------------------|------------------|--------------|--|--
B|----------------------|------------0-----|--------0-----|--|--
G|--0--2--2h4--2--0-----|---------------0--|-----------0--|--|--
D|-------------------0--|-----0h2p0--------|-----4--------|--|--
A|----------------------|--3---------------|--5-----------|--|--
E|----------------------|------------------|--------------|--|--



E|-----------------------|-----------------2--3--|--------------|-----------------------|--
B|-----------8--7--5--3--|--5--------5--3--------|--1--0--------|-----------0--------3--|--
G|-----0-----------------|-----0-----------------|--------2--0--|--2-----2-----2--------|--
D|-----------------------|-----------------------|--------------|-----0-----------0-----|--
A|--7-----7-----5--3--2--|--3-----3-----2--------|--0-----------|-----------------------|--
E|-----------------------|-----------------------|-----3--------|--2--------------------|--
http://www.guitartabcreator.com
Guitar Tab Creator is intended to store guitar tab created through the tool. It currently does not support in-line text editing. Any text you place in here will be lost. If you need to comment on your tab, please use the "Tab Notes" section located below.