Nightmare (3:14-3:31)

(/) Slide Up  (\) Slide Down  (h) Hammer On  (p) Pull Off  (b) Bend (r) Release (v) Vibrato

Stave 1:

E|--10/17--17--16--16--15--15--13--------------------------------10/17--17--16--16--15--15--13--------
B|---------------------------------15--------------------14h15v---------------------------------------
G|------------------------------------------------14h15-----------------------------------------------
D|-----------------------------------------14h17------------------------------------------------------
A|-------------------------------------16-------------------------------------------------------------
E|----------------------------------------------------------------------------------------------------

Stave 2:

E|-------------------------------------------------------------------------------------
B|--15------15-------------------------------------------------------------------------
G|------14------------------12--13--14--15v--15--14--13--12--12--14/19--17--16h17--21--
D|--------------12--14--15-------------------------------------------------------------
A|-------------------------------------------------------------------------------------
E|-------------------------------------------------------------------------------------

http://www.guitartabcreator.com
Guitar Tab Creator is intended to store guitar tab created through the tool. It currently does not support in-line text editing. Any text you place in here will be lost. If you need to comment on your tab, please use the "Tab Notes" section located below.