starspangledbbanner()9easy

(/) Slide Up  (\) Slide Down  (h) Hammer On  (p) Pull Off  (b) Bend (r) Release (v) Vibrato


E|-------------------------------------------------------------------------------------------
B|---------------------------------------------9--7-----7------------------------------------
G|--------------------11b13--9-----------------------9-----8------8--9--9--------------------
D|--9--6-----6--8--9------------6--8--9--9--9-----------------11-----------9--6-----9--6-----
A|--------7----------------------------------------------------------------------7--------7--
E|-------------------------------------------------------------------------------------------



E|-------------------------------------------------------------------------16--16--16--17--19--19--
B|------------------------------------9--7-----7---------------------------------------------------
G|-----------11b13--9-----------------------9-----8------8--9--9-----------------------------------
D|--6--8--9------------6--8--9--9--9-----------------11-----------9--6-----------------------------
A|----------------------------------------------------------------------7--------------------------
E|-------------------------------------------------------------------------------------------------



E|--17--16------16--17--17--17--16------------------------------------------------------------------
B|----------19----------------------19--17--16------16--17------------------17--17--17--16--14--14--
G|----------------------------------------------18------------------16--16--------------------------
D|----------------------------------------------------------16--18----------------------------------
A|--------------------------------------------------------------------------------------------------
E|--------------------------------------------------------------------------------------------------



E|------14--16--17--16--14--12--14--12--11----------14--16--17--19----------16--17--14--12-----
B|--14------------------------------------------17------------------17--19---------------------
G|------------------------------------------16-------------------------------------------------
D|---------------------------------------------------------------------------------------------
A|---------------------------------------------------------------------------------------------
E|---------------------------------------------------------------------------------------------
http://www.guitartabcreator.com
Guitar Tab Creator is intended to store guitar tab created through the tool. It currently does not support in-line text editing. Any text you place in here will be lost. If you need to comment on your tab, please use the "Tab Notes" section located below.