MY HERO PT2

(/) Slide Up  (\) Slide Down  (h) Hammer On  (p) Pull Off  (b) Bend (r) Release (v) Vibrato


E|-----------------------------------------------------------|--------|-------------0-0-0-0-
B|-----------------------------------------------------------|--------|-------------4-5-4-0-
G|---------6-6-6-6-6-6-6-6---------------------6-6-6-6-6-6-6-|--------|-------------------4-
D|-2-2-2-2-6-6-6-6-6-6-6-6-------------2-2-2-2-6-6-6-6-6-6-6-|--------|---------------------
A|-2-2-2-2-4-4-4-4-4-4-4-4-----4-2-----2-2-2-2-4-4-4-4-4-4-4-|--------|-----4-2-------------
E|-0-0-0-0-----------------2-2-----4-5-0-0-0-0---------------|--------|-2-2-----4-5---------



E|-----------------------|----|-------------0-0-0-0-----------------------------
B|-----------------------|----|-------------4-5-4-0-----------------------------
G|---------6-6-6-6-6-6-6-|----|-------------------4-----------------------------
D|-2-2-2-2-6-6-6-6-6-6-6-|----|-------------------------2-2-2-2-2-2-2-2-2-2-2-2-
A|-2-2-2-2-4-4-4-4-4-4-4-|----|-----4-2-----------------2-2-2-2-2-2-2-2-2-2-2-2-
E|-0-0-0-0---------------|----|-2-2-----4-5-------------0-0-0-0-0-0-0-0-0-0-0-0-



E|-------------------------------------
B|-------------------------------------
G|---------6-6-6-6-6-6-6---------------
D|-2-2-2-2-6-6-6-6-6-6-6---------------
A|-2-2-2-2-4-4-4-4-4-4-4-----4-2-------
E|-0-0-0-0---------------2-2-----4-5---
http://www.guitartabcreator.com
Guitar Tab Creator is intended to store guitar tab created through the tool. It currently does not support in-line text editing. Any text you place in here will be lost. If you need to comment on your tab, please use the "Tab Notes" section located below.