My hero

(/) Slide Up  (\) Slide Down  (h) Hammer On  (p) Pull Off  (b) Bend (r) Release (v) Vibrato
E|--0--0--0--0--0--0--0--0-------------------------------------------------------
B|--4--5--4--0--4--5--4--0-------------------------------------------------------
G|-----------4-----------4--5--5--5--5--5--5--4--4--7--4--4--4--7--4--4--4-------
D|-------------------------------------------------------------------------------
A|-------------------------------------------------------------------------------
E|-------------------------------------------------------------------------------



E|-----------------------------------------------------------------------------------------------
B|-----------------------------------------------------------------------------------------------
G|-5-5-5-5-5-5-4-4-7-4-4-4-7-4-4-4---2-2-2-2-8-8-8-8-9-9-9-9-11-11-11-11-2-2-2-2-8-8-8-8-9-9-9-9-
D|-----------------------------------2-2-2-2-x-x-x-x-x-x-x-x-x--x--x--x--2-2-2-2-x-x-x-x-x-x-x-x-
A|-----------------------------------0-0-0-0-6-6-6-6-7-7-7-7-9--9--9--9--0-0-0-0-6-6-6-6-7-7-7-7-
E|-----------------------------------------------------------------------------------------------



E|-------------------------------------------------------------------------------------
B|-------------------------------------------------------------------------------------
G|-4-4-4-4---------8-8-8-8-9-9-9-9-11-11-11-11---------11-11-11-11-13-13-13-13-8-8-8-8-
D|-x-x-x-x-2-2-2-2-x-x-x-x-x-x-x-x-x--x--x--x--2-2-2-2-x--x--x--x--x--x--x--x--x-x-x-x-
A|-2-2-2-2-2-2-2-2-6-6-6-6-7-7-7-7-9--9--9--9--2-2-2-2-9--9--9--9--11-11-11-11-6-6-6-6-
E|---------0-0-0-0-----------------------------0-0-0-0---------------------------------



E|-----------------------------------------------------------------------------------------------
B|-----------------------------------------------------------------------------------------------
G|-5-5-5-5-5-5-4-4-7-4-4-4-7-4-4-4---2-2-2-2-8-8-8-8-9-9-9-9-11-11-11-11-2-2-2-2-8-8-8-8-9-9-9-9-
D|-----------------------------------2-2-2-2-x-x-x-x-x-x-x-x-x--x--x--x--2-2-2-2-x-x-x-x-x-x-x-x-
A|-----------------------------------0-0-0-0-6-6-6-6-7-7-7-7-9--9--9--9--0-0-0-0-6-6-6-6-7-7-7-7-
E|-----------------------------------------------------------------------------------------------



E|-------------------------------------------------------------------------------------
B|-------------------------------------------------------------------------------------
G|-4-4-4-4---------8-8-8-8-9-9-9-9-11-11-11-11---------11-11-11-11-13-13-13-13-8-8-8-8-
D|-x-x-x-x-2-2-2-2-x-x-x-x-x-x-x-x-x--x--x--x--2-2-2-2-x--x--x--x--x--x--x--x--x-x-x-x-
A|-2-2-2-2-2-2-2-2-6-6-6-6-7-7-7-7-9--9--9--9--2-2-2-2-9--9--9--9--11-11-11-11-6-6-6-6-
E|---------0-0-0-0-----------------------------0-0-0-0---------------------------------



E|-------------------------------------------------------------
B|-----------9-9-9-9-9-9-9b9-----------------------------------
G|-9-9-9-9-9-9-9-9-9-9-9-9-9-5-5-5-5-5-5-4-4-7-4-4-4-7-4-4-4---
D|-------------------------------------------------------------
A|-------------------------------------------------------------
E|-------------------------------------------------------------



E|----------------------------------------------------------------------------------------------
B|----------------------------------------------------------------------------------------------
G|-2-2-2-2-8-8-8-8-9-9-9-9-11-11-11-11-2-2-2-2-8-8-8-8-9-9-9-9-6-6-6-6---------8-8-8-8-11-11-11-
D|-2-2-2-2-x-x-x-x-x-x-x-x-x--x--x--x--2-2-2-2-x-x-x-x-x-x-x-x-x-x-x-x-2-2-2-2-x-x-x-x-x--x--x--
A|-0-0-0-0-6-6-6-6-7-7-7-7-9--9--9--9--0-0-0-0-6-6-6-6-7-7-7-7-4-4-4-4-2-2-2-2-6-6-6-6-9--9--9--
E|---------------------------------------------------------------------0-0-0-0------------------



E|--------------------------------------------------------------
B|--------------------------------------------------------------
G|--11--------------11--11--11--11--13--13--13--13--8--8--8--8--
D|--x---2--2--2--2--x---x---x---x---x---x---x---x---x--x--x--x--
A|--9---2--2--2--2--9---9---9---9---11--11--11--11--6--6--6--6--
E|------0--0--0--0----------------------------------------------
http://www.guitartabcreator.com
Guitar Tab Creator is intended to store guitar tab created through the tool. It currently does not support in-line text editing. Any text you place in here will be lost. If you need to comment on your tab, please use the "Tab Notes" section located below.