californiacation solo

(/) Slide Up  (\) Slide Down  (h) Hammer On  (p) Pull Off  (b) Bend (r) Release (v) Vibrato


E|------9-------------9------------------------------------------------------------------9--12--14--
B|--10------------10-----------------------------------------------------------------10-------------
G|---------11b11---------11b11----11--11--11--11p9-----------------9--11b11--9----------------------
D|--------------------------------------------------11--11--9--11---------------11v-----------------
A|--------------------------------------------------------------------------------------------------
E|--------------------------------------------------------------------------------------------------



E|------9--12--14b14--14v----17--16--14------14-----------------------------------------14b14--12-----
B|--10-----------------------------------17------17--14--17--14--14--14--14--17--14\14----------------
G|---------------------------------------------------------------16--16--16---------------------------
D|----------------------------------------------------------------------------------------------------
A|----------------------------------------------------------------------------------------------------
E|----------------------------------------------------------------------------------------------------



E|------12--------------12--10--9------
B|--14------14--12--10-------------10--
G|-------------------------------------
D|-------------------------------------
A|-------------------------------------
E|-------------------------------------
http://www.guitartabcreator.com
Guitar Tab Creator is intended to store guitar tab created through the tool. It currently does not support in-line text editing. Any text you place in here will be lost. If you need to comment on your tab, please use the "Tab Notes" section located below.