bohemian rhapsody solo

(/) Slide Up  (\) Slide Down  (h) Hammer On  (p) Pull Off  (b) Bend (r) Release (v) Vibrato


E|------------------------------8--10--11--8--10--11--11b13------13--15--16--18--18b19--
B|--------------11v--8--11b12v-------------------------------13-------------------------
G|-----10b10p8--------------------------------------------------------------------------
D|--8-----------------------------------------------------------------------------------
A|--------------------------------------------------------------------------------------
E|--------------------------------------------------------------------------------------



E|--18--16--15--16--15h16p15------15---------------------------------------------------------15--16--
B|----------------------------18------18--16--15--16--15h16p15-------------------15--16--18----------
G|--------------------------------------------------------------17--15v--15--17----------------------
D|---------------------------------------------------------------------------------------------------
A|---------------------------------------------------------------------------------------------------
E|---------------------------------------------------------------------------------------------------



E|--18----------------------15--16--18--18b18-------------------------------------------------
B|--------------15--16--18---------------------15--16------15--16------15--16b16v-------------
G|------15--17-----------------------------------------17----------17--------------10--12-----
D|--------------------------------------------------------------------------------------------
A|--------------------------------------------------------------------------------------------
E|--------------------------------------------------------------------------------------------



E|------13-----9--9--9------
B|----------9---------------
G|--13------------------11--
D|--------------------------
A|--------------------------
E|--------------------------
http://www.guitartabcreator.com
Guitar Tab Creator is intended to store guitar tab created through the tool. It currently does not support in-line text editing. Any text you place in here will be lost. If you need to comment on your tab, please use the "Tab Notes" section located below.