black hole

(/) Slide Up  (\) Slide Down  (h) Hammer On  (p) Pull Off  (b) Bend (r) Release (v) Vibrato


E|---------------------------------------------------------------------
B|---------------------------------------------------------------------
G|------------------------------------------------------2--0--2--0-----
D|------------------------------------------------------------------2--
A|-----10b10-----------10-----------10-----------10--------------------
E|--0---------0--0--0------0--0--0------0--0--0------0-----------------



E|--------------------------------------------------------------------------------------------------
B|--------------------------------------------------------------------------------------------------
G|--------------------------------------------------------------------------------------------------
D|--------5-----------------------5--------7--7--5--------5-----------------------5--------7--7--9--
A|-----------------------------------------7--7--5-----------------------------------------7--7--9--
E|--0--0-----0--0--3--3--3--0--0-----0--0--5--5--3--0--0-----0--0--3--3--3--0--0-----0--0--5--5--7--



E|-----------------------------------------------------
B|-----------------------------------------------------
G|--------------------------------------2--0--2--0-----
D|--------5-----------------------5-----------------2--
A|-----------------------------------------------------
E|--0--0-----0--0--3--3--3--0--0-----0-----------------



E|-----------------------
B|-----------------------
G|-----------------------
D|-----------------5--4--
A|-----------------------
E|--7--7--6--5--3--------
http://www.guitartabcreator.com
Guitar Tab Creator is intended to store guitar tab created through the tool. It currently does not support in-line text editing. Any text you place in here will be lost. If you need to comment on your tab, please use the "Tab Notes" section located below.