Worst thing I've ever done

(/) Slide Up  (\) Slide Down  (h) Hammer On  (p) Pull Off  (b) Bend (r) Release (v) Vibrato

E|-----------------
B|--------1--------
G|-----1-----------
D|--1--------1-----
A|-----------------
E|-----------------



E|--
B|--
G|--
D|--
A|--
E|--



E|--|--|--|-----
B|--|--|--|--1--
G|--|--|--|--1--
D|--|--|--|--1--
A|--|--|--|-----
E|--|--|--|-----



E|--
B|--
G|--
D|--
A|--
E|--
http://www.guitartabcreator.com
Guitar Tab Creator is intended to store guitar tab created through the tool. It currently does not support in-line text editing. Any text you place in here will be lost. If you need to comment on your tab, please use the "Tab Notes" section located below.