we'll never know

(/) Slide Up  (\) Slide Down  (h) Hammer On  (p) Pull Off  (b) Bend (r) Release (v) Vibrato


E|-------------------------------------------------------------------------------------------------------------
B|-------------------------------------------------------------------------------------------------------------
G|-------------------------------------------------------------------------------------------------------------
D|-------------------------------------------------------------------------------------------------------------
A|-------------------------------------------------------------------------------------------------------------
E|-2\12-12-12-12-12-12-12-12-12-12-12-12-12-12-7-7-7-7-5-5-5-5-5-5-5-5-5-5-5-0-0-0-0-0-0-0-7-7-7-7-7-5-5-5-5-5-



E|-------------------------------------------------------------------------------
B|-------------------------------------------------------------------------------
G|-------------------------------------------------------------------------------
D|-------------------------------------------------------------------------------
A|-------------------------------------------------------------------------------
E|-0-0-0-0-0-0-0-0-0-0-0-0-5-5-5-5-5-5-5-5-5-5-5-9-9-9-9-7-7-7-7-7-5-5-5-5-5-5-5-



E|-------------------------
B|-------------------------
G|-------------------------
D|-------------------------
A|-------------------------
E|-7-7-7-7-5-5-5-5-7-7-7-7-



E|---------------------------------------------------------------------------------------------
B|---------------------------------------------------------------------------------------------
G|---------------------------------------------------------------------------------------------
D|---------------------------------------------------------------------------------------------
A|---------------------------------------------------------------------------------------------
E|-0-0-0-0-0-0-0-0-0-0-5-5-5-5-5-5-5-9-9-9-9-9-9-5-5-5-5-0-0-0-7-7-7-5-5-5-5-5-5-7-7-7-7-7-7-7-



E|---------------------------------------------------------------------------------
B|---------------------------------------------------------------------------------
G|---------------------------------------------------------------------------------
D|---------------------------------------------------------------------------------
A|---------------------------------------------------------------------------------
E|-0-0-0-0-0-0-0-0-0-0-0-0-0-0-0-0-0-0-0-0-0-5-5-5-5-5-5-5-5-5-5-5-5-5-5-5-5-5-5-5-



E|-----
B|-----
G|-----
D|-----
A|-----
E|--v-r
http://www.guitartabcreator.com
Guitar Tab Creator is intended to store guitar tab created through the tool. It currently does not support in-line text editing. Any text you place in here will be lost. If you need to comment on your tab, please use the "Tab Notes" section located below.