nothing to do with me

(/) Slide Up  (\) Slide Down  (h) Hammer On  (p) Pull Off  (b) Bend (r) Release (v) Vibrato


E|-----------------------------------------------
B|-----------------------------------------------
G|-----------------------------------------------
D|-----4--6--------4--6--------6--4--2--1--0--1--
A|--7--------5--7--------5--7--------------------
E|-----------------------------------------------



E|----------------------------
B|----------------------------
G|----------------------------
D|----------------------------
A|-----7--5--7--9--9--7--9--5\
E|--7-------------------------



E|-----------------------
B|-----------------------
G|-----------------------
D|-----------------------
A|--------1--2-----1--2--
E|--2--0--------4--------



E|--------------------------------------
B|--------------------------------------
G|--------------------------------------
D|--------------------------7--6--------
A|-----7--4--5--7--5--7--9--------7--5--
E|--7-----------------------------------
http://www.guitartabcreator.com
Guitar Tab Creator is intended to store guitar tab created through the tool. It currently does not support in-line text editing. Any text you place in here will be lost. If you need to comment on your tab, please use the "Tab Notes" section located below.