girls like you

(/) Slide Up  (\) Slide Down  (h) Hammer On  (p) Pull Off  (b) Bend (r) Release (v) Vibrato

E|---------------------------
B|---------------------------
G|---------------------------
D|---------------------------
A|---------------------------
E|-5-0-7-9-5-0-7-5-0-7-9-5-7-



E|---------------------------------------------------
B|---------------------------------------------------
G|---------------------------------------------------
D|---------------------------------------------------
A|-----------------2-2-2-4-5-------------------------
E|-5-5-5-5-0-0-0-0-----------0-5-7-9-5-5-5-5-7-7-7-7-



E|---------------------------
B|---------------------------
G|---------------------------
D|---------------------------
A|---------------------------
E|-0-5-7-9-0-5-7-0-5-7-9-5-7-



E|--------------
B|--------------
G|--------------
D|--------------
A|--------------
E|--9--8--7--6--
http://www.guitartabcreator.com
Guitar Tab Creator is intended to store guitar tab created through the tool. It currently does not support in-line text editing. Any text you place in here will be lost. If you need to comment on your tab, please use the "Tab Notes" section located below.