...

(/) Slide Up  (\) Slide Down  (h) Hammer On  (p) Pull Off  (b) Bend (r) Release (v) Vibrato
E|--------3-------------3-----|--
B|--0--------0--0-1--------1--|--
G|-----0-------------0--------|--
D|--------------0h2-----------|--
A|----------------------------|--
E|--3-------------------------|--



E|--3------3------3------3----|--
B|--3------3------5------5----|--
G|--4------4------5------5----|--
D|--5------5------5------5----|--
A|--5------5------3------3----|--
E|--3------3------------------|--



E|----8------8------12------12--|----8------8------12--8--12--|--
B|----9------9------13------13--|----9------9------13--9--13--|--
G|----8------8------12------12--|----8------8------12--8--12--|--
D|------------------------------|-----------------------------|--
A|------------------------------|-----------------------------|--
E|------------------------------|-----------------------------|--



E|--3------------3------------|--
B|--3------------1------------|--
G|--0------------0------------|--
D|--0------------2------------|--
A|--2------------3------------|--
E|--3-------------------------|--



E|--3--3--3--3--3----0--0--0--0--|--
B|--3--3--3--3--3----3--3--3--1--|--
G|--0--0--0--0--0----0--0--0--0--|--
D|--0--0--0--0--0----2--2--2--2--|--
A|--2--2--2--2--2----3--3--3--3--|--
E|--3--3--3--3--3----------------|--



E|----------------------------------------12--8--------|--
B|-----------------------8-----------------------8-----|--
G|---------7----------9--------------7--------------9--|--
D|------9---------10--------------9--------------------|--
A|--10------------------------10-----------------------|--
E|-----------------------------------------------------|--
http://www.guitartabcreator.com
Guitar Tab Creator is intended to store guitar tab created through the tool. It currently does not support in-line text editing. Any text you place in here will be lost. If you need to comment on your tab, please use the "Tab Notes" section located below.