Surrender To Love

(/) Slide Up  (\) Slide Down  (h) Hammer On  (p) Pull Off  (b) Bend (r) Release (v) Vibrato
E|------7--8--------7--8----10--8--7--------12--------7--8--------7--8--10--10/12--10--8------
B|--10----------10--------------------10----------10----------10--------------------------10--
G|--------------------------------------------------------------------------------------------
D|--------------------------------------------------------------------------------------------
A|--------------------------------------------------------------------------------------------
E|--------------------------------------------------------------------------------------------



E|------7--8---------------7--8---------------7--8--------------------------------------------
B|--10-----------------10-----------------10--------------------------------------------------
G|------------9--10--------------9--10--------------10h12--9----------------9--10--12--10--9--
D|------------------------------------------------------------------10--12--------------------
A|--------------------------------------------------------------12----------------------------
E|--------------------------------------------------------------------------------------------



E|------7--8---------------8--7-------------8--7------------------------------------------------
B|--10-----------------10---------------10------------------------------------------------------
G|------------9--10--------------9--10------------12--9----------------9--10--12--10--9------9--
D|-------------------------------------------------------------10--12--------------------12-----
A|---------------------------------------------------------12-----------------------------------
E|----------------------------------------------------------------------------------------------



E|------7--8---------------7--8---------------7--8/10--10/12--12--------------------------
B|--10-----------------10-----------------10----------------------------------------------
G|------------9--10--------------9--10------------------------------------------9--10--9--
D|----------------------------------------------------------------------10--12------------
A|------------------------------------------------------------------12--------------------
E|----------------------------------------------------------------------------------------



E|------7--8---------------7--8---------------7--8--7-----------------------------------------
B|--10-----------------10-----------------10--------------------------------------------------
G|------------9--10--------------9--10-----------------12--9----------------9--10--12--10--9--
D|------------------------------------------------------------------10--12--------------------
A|--------------------------------------------------------------12----------------------------
E|--------------------------------------------------------------------------------------------



E|--------------------------------------------------0--0--0----0--
B|--------------------------------------------------0--0--0----0--
G|--------------------------------------------------1--1--1----1--
D|------9--10--12--9----------9--10--12--10--9------2--2--2----2--
A|--12--------------------12------------------------2--2--2----2--
E|--------------------------------------------------0--0--0----0--



E|--7--8--10--8--7--8--------7--8--10--8--7--10/12--10--8------
B|---------------------10----------------------------------10--
G|-------------------------------------------------------------
D|-------------------------------------------------------------
A|-------------------------------------------------------------
E|-------------------------------------------------------------



E|------7--8--10--8--7--8------------------
B|--10---------------------10--8--6--5--6--
G|-----------------------------------------
D|-----------------------------------------
A|-----------------------------------------
E|-----------------------------------------
http://www.guitartabcreator.com
Guitar Tab Creator is intended to store guitar tab created through the tool. It currently does not support in-line text editing. Any text you place in here will be lost. If you need to comment on your tab, please use the "Tab Notes" section located below.