Hotel California (Unplugged)

(/) Slide Up  (\) Slide Down  (h) Hammer On  (p) Pull Off  (b) Bend (r) Release (v) Vibrato
E|--------------------------------------------------------------------------------------
B|--0--0h2p0-----0--2--3--5--7--7h8p7--5/7------------3--2------------------------------
G|------------3---------------------------------2--4-----------2--2h4--2----------------
D|----------------------------------------------------------4-------------4\2-----------
A|-----------------------------------------------------------------------------4/7------
E|--------------------------------------------------------------------------------------



E|-----------0-----------0-----------0-----------0--------7--------10--------7--------10--
B|--------0-----------0-----------0-----------0--------8--------8---------8--------8------
G|-----0-----------2-----------4-----------7--------9--------9---------9--------9---------
D|--2-----------4-----------5-----------9-------------------------------------------------
A|----------------------------------------------------------------------------------------
E|----------------------------------------------------------------------------------------



E|--------7--------10--------7--------10--------7--------10--------7--------10-----
B|-----8--------8---------8--------8---------8--------8---------8--------8---------
G|--9--------9---------9--------9---------9--------9---------9--------9------------
D|---------------------------------------------------------------------------------
A|---------------------------------------------------------------------------------
E|---------------------------------------------------------------------------------



E|--------7--6--7--9--10--9--10--12/14--14--
B|-----8------------------------------------
G|--9---------------------------------------
D|------------------------------------------
A|------------------------------------------
E|------------------------------------------



E|-------------------------------------------
B|-----7h8p7-----7--7-----7------------------
G|------------9--------9-----7--9p7----------
D|--9--------------------------------9--7/9--
A|-------------------------------------------
E|-------------------------------------------



E|-------------------------------------------------7--9--10--9--10--12\
B|-------------------------------------8--7--8h10----------------------
G|--------7\6-----6--6--------6--7--9----------------------------------
D|--7--9-------9--------7--9-------------------------------------------
A|---------------------------------------------------------------------
E|---------------------------------------------------------------------



E|-----------0-----------0-----------0-----------0--7p0-----10--12--10------
B|--------0-----------0-----------0-----------0----------0--------------12--
G|-----0-----------2-----------4-----------7--------------------------------
D|--2-----------4-----------5-----------9-----------------------------------
A|--------------------------------------------------------------------------
E|--------------------------------------------------------------------------



E|--9--9h10p9\7--7h9p7\6--------------------------------------
B|------------------------8--7--7--7--8--7-----7--------------
G|------------------------------------------9-----7--6--------
D|------------------------------------------------------9--8--
A|------------------------------------------------------------
E|------------------------------------------------------------



E|--7--------------7---------------------9-----6----------------7-------------------
B|-----------7------------------------7---------------------10-----10--------10-----
G|--------7-----7---------7--9-----9--------9------------9-------------9------------
D|-----9------------------------8---------------------7-------------------7---------
A|-------------------------------------------------------------------------------7--
E|----------------------------------------------------------------------------------



E|-----7-----7--------7---------7-----7--------7-------------------------10---------
B|--------------7------------------------8--------8-------------------7-------------
G|--------7--------7---------------7--------7--------7-------7-----7----------------
D|--6------------------------5--------------------------7h9-----7-------------------
A|---------------------------------------------------------------------------9------
E|------------------------------------------------------------------------------10--



E|-----7-----7--------7------------------------------9--
B|--------------8-----------8------------------7--------
G|--------9--------9-----9------------------9-----9-----
D|-----------------------------9---------8--------------
A|--7---------------------------------9-----------------
E|------------------------------------------------------



E|----------------------------------------------------------------------------------------------
B|----------------------------------------------------------------------------------------------
G|----------------------------------------------------------------------------------------------
D|-----2--4--2--0h2p0------------------0--0-----0---------------2/4--0--2--4--5--4h5p4--2/4-----
A|--5------------------4----4--5--7\2--------2-------2--4--5\0----------------------------------
E|----------------------------------------------------------------------------------------------



E|-----------------------------------------------------------------9---9---9-\7--7--7\5--5--5--
B|-------------------7--7--8--7--8/10--8--7------------------------10--10--10-8--8--8-7--7--7--
G|-------------------7--7--7--7--7-9---7--7----------------------------------------------------
D|-------------------7--7--9--7--9-11--9--7----------0--2--4--5--------------------------------
A|-----1--2--4--5------------------------------2--4--------------------------------------------
E|--2------------------------------------------------------------------------------------------



E|-------------------9---9---9-\7--7--7\5--5--5----------------------7--7--7-5--5--5\2----2--
B|-------------------10--10--10-8--8--8-7--7--7----------------------8--8--8\7--7--7-3----2--
G|----------------------------------------------------------------------------------------3--
D|-------------------------------------------------------0--2--4--5-----------------------2--
A|-----1--2--4--5----------------------------------2--4-----------------------------------4--
E|--2-------------------------------------------------------------------------------------2--



E|--------------------------------------7--5--3--2----9--10--12--12--12--12--
B|-----------5--5--5--5--------5--------7--5--3--2---------------------------
G|--2--4--6--------------7--6-----7--6--7--6--4--3---------------------------
D|---------------------------------------------------------------------------
A|---------------------------------------------------------------------------
E|---------------------------------------------------------------------------



E|--12--10--9------10--9--------------------------------------------------------------------------
B|-------------12---------12--10--9---------------------------------------------------------------
G|-----------------------------------9-------------------------------------------0-----2h4--2-----
D|--------------------------------------9----------------------0-----2--0--4--2-----4-------------
A|-----------------------------------------9/11----------0--2-----4-------------------------------
E|-------------------------------------------------2--3-------------------------------------------



E|---------------0-----------------0-----------------0-----------------0--0--2--2-----------------
B|------------------0-----------------0-----------------0--------------0--0--2-----2--------------
G|--4------------------0-----------------0-----------------0-----------0--0--3--------3-----------
D|-----4------------------2-----------------2-----------------2--------2--2--4-----------4--------
A|---------------------------2-----------------2-----------------2-----2--2--4--------------4-----
E|----------0-------------------0-----------------0-----------------0--0--0--2-----------------2--



E|---------------------------------------------------------------------------------------
B|--0--0h2p0-----0--2--3--5--7--7h8p7--5/7--------7--7h8p7\5--5h7p5\3--3h5p3\2-----------
G|------------3-----------------------------7--9--------------------------------4--3-----
D|---------------------------------------------------------------------------------------
A|---------------------------------------------------------------------------------------
E|---------------------------------------------------------------------------------------



E|-----0------------------14----------------------------------------------------------------
B|--2-----12--14--12--11------------7--7--7--5--5--5--------------------3--3h5p3--2h3p2-----
G|----------------------------------------------------7--7--6--4----------------------------
D|----------------------------12\7--------------------------------7--6----------------------
A|------------------------------------------------------------------------------------------
E|------------------------------------------------------------------------------------------



E|-----------0---------------------------------------------3--5--5--5--5/7--5--3--5--
B|--0--------------------------------0--0h2p0-----0--2--5-----7--7--7--7-8--7--5--7--
G|-----2--1------------------------------------3-------------------------------------
D|--------------2--4--5h7p5--4/5--7--------------------------------------------------
A|-----------------------------------------------------------------------------------
E|-----------------------------------------------------------------------------------



E|-----------------------------------3p0-----7--------10----------12p10---------
B|--------------------0h2h3--5p0----------0-----8---------12-------------12-----
G|-----------0h2h3h4--------------0----------------9----------12----------------
D|--0h2h3h4---------------------------------------------------------------------
A|------------------------------------------------------------------------------
E|------------------------------------------------------------------------------



E|--2--2h3p2p0-----0h2--0-------------------------------
B|--------------3----------3--2h3p2--0h2----------------
G|------------------------------------------------------
D|------------------------------------------------------
A|------------------------------------------------------
E|------------------------------------------------------



E|-----------0--2--------2--------2--------2--------2--------0--------0--------0-----1/6--
B|--3--2--3--------3--------3--------3--------3--------3--------2--------2--------2-------
G|--------------------4--------4--------4--------4--------4--------3--------3-------------
D|----------------------------------------------------------------------------------------
A|----------------------------------------------------------------------------------------
E|----------------------------------------------------------------------------------------



E|--0--------0--------0--------0--------0--------------------------------2/4--
B|-----2--------2--------2--------2--------2-----3--0-----3--0-----3--0-------
G|--------2--------2--------2--------2--------2--------1--------1-------------
D|----------------------------------------------------------------------------
A|----------------------------------------------------------------------------
E|----------------------------------------------------------------------------



E|----------------------------------------------------------------------------
B|--3--0-----3--0-----3--0-----3--0-----3--0-----3--------3--------3-----3/7--
G|--------0--------0--------0--------0--------0-----2--------2--------2-------
D|-----------------------------------------------------4--------4-------------
A|----------------------------------------------------------------------------
E|----------------------------------------------------------------------------



E|-------------------------------------------------
B|-------------------------------------------------
G|--4--0-----4--0-----4--0-----4--0-----4--0--3h4--
D|--------2--------2--------2--------2-------------
A|-------------------------------------------------
E|-------------------------------------------------



E|-----------------------------2-----------------0--2--2--2--2--
B|--2--------3--0-----5--0--------3-----3--2--3-----3--3--3--3--
G|-----3-----------------------------4--------------4--4--4--4--
D|--------4--------4--------4-----------------------4--4--4--4--
A|--------------------------------------------------2--2--2--2--
E|--------------------------------------------------------------
http://www.guitartabcreator.com
Guitar Tab Creator is intended to store guitar tab created through the tool. It currently does not support in-line text editing. Any text you place in here will be lost. If you need to comment on your tab, please use the "Tab Notes" section located below.